sábado, 16 de novembro de 2013

Menino da Porteira Tablatura Viola Caipira


Menino da Porteira Tablatura Viola Caipira 
Introdução

1|10-10-10--9-|0--0--0--2--4--2---0-------------------|
2|12-12-12--10|2--2--2--3--5--3---2--3--2-2--3-2--(2x)|
3|------------|----------------------3--1-1--3-1------|
4|------------|---------------------------------------|
5|------------|---------------------------------------|


1|10-10-10--9-|2X Esta Introdução 
2|12-12-12--10|
3|------------|
4|------------|
5|------------|



1|-9--9------9----9----------9-------7----9------9-----|
2|10--10-----10---10---------10------9----10----10-----|
3|-----------------------------------------------------|
4|-----------------------------------------------------|
5|-----------------------------------------------------|
  To   da    vez  que eu     vi      a    já    va



1|10--10------12--12------9-----9------7----7-|
2|12--12------14--14------10----10-----9----9-|
3|--------------------------------------------|
4|--------------------------------------------|
5|--------------------------------------------|
  Pe   la     es  trada  deOu   ro     Fi   no



1|4----4----4--4—-4--2---4---4---5--5---7--10---10----9---9----9-
2|5----5----5—-5--5--3---5---5---7--7---9--12---12----10--10---10|
3|---------------------------------------------------------------
4|---------------------------------------------------------------
5|--------------------------------------------------------------|
 De   lon  ge  eu a vis  ta  va  A  fi  gu ra   deum  me  ni   no



1|9----9----9--9----9--------7----9-----9---|
2|10---10---10-10---10-------9----10----10--|
3|------------------------------------------|
4|------------------------------------------|
5|------------------------------------------|
  Que  cor  ri  a   abrir a  por  tei   ra  





1|10----10----12---12----9-----9------7-----7-|
2|12----12----14---14----10----10-----9-----9-|
3|--------------------------------------------|
4|--------------------------------------------|
5|--------------------------------------------|
  De   pois   vi   nha   me    pe    din    do



1|4---4------4----4----4----2--4--4----0----0----2---2---0---------------|
2|5---5------5----5----5----3--5--5----2----2----3---3---2----3----2----2|
3|------------------------------------------------------------3----1----1|
4|-----------------------------------------------------------------------|
5|-----------------------------------------------------------------------|
  To  que o  ber  ran  te  seu mo ço  Que é pra  eu  fi  car  ou  vin   do


1|2----2----2----2----2---0----2---2---2---0----2-----5---5----4----4-----4-|
2|3----3----3----3----3---2----3---3---3---2----3-----7---7----5----5-----5-|
3|--------------------------------------------------------------------------|
4|--------------------------------------------------------------------------|
5|--------------------------------------------------------------------------|
Quando a   boi   a    da pas  sa  va  E a poeira      i   a    bai  xan  do


1|4---4---4--4----4---2---4--4---5---5----7----10---10---9----9---9-|
2|5---5---5--5----5---3---5--5---7---7----9----12---12---10---10-—10|
3|------------------------------------------------------------------|
4|------------------------------------------------------------------|
5|------------------------------------------------------------------|
  Eu  jo ga  va  uma  mo  e  da  e   le   sa   i    a    pu   lan do


1|9---9---9----9---9----7---9----9--10---10---12---12----9---9----7----7|
2|10-—10--10---10--10---9---10---10-12---12---14---14----10--10---9----9|
3|----------------------------------------------------------------------|
4|----------------------------------------------------------------------|
5|----------------------------------------------------------------------|
  O  bri  ga   do  boi  a   dei  ro  Que Deus  vá  lhe a com pa  nhan  do


1|4---4----4----4----4----2--4---4---0---0----2----2---0-----------------|
2|5---5----5----5----5----3--5---5---2---2----3----3---2----3----2-----2-|
3|----------------------------------------------------------3----1-----1-|
4|-----------------------------------------------------------------------|
5|-----------------------------------------------------------------------|
 Pra aque  le   ser tão   a  fo  ra  Meu ber  ran  te  ia   to   can   do



Baixe em PDF 
CLIQUE AQUI 


AULAS PARTICULARES DE VIOLA CAIPIRA VIA SKYPE 

Compre meu método! 
FALE COMIGO 

Prof. Cristiano Scuciatto   (19) 9 9105-9159 
cristianomusicas31@gmail.com
http://aprendaviolacaipira.blogspot.com.br/  


Ocorreu um erro neste gadget